(YUI) Thank You My Teens Lead Guitar Tabs

Thank You My Teens (Lead Guitar)
Tabbed by Jibba

Intro
----------------------------------------------------------------------
----------------------------------------------------------------------
----------------------------------------------------------------------
--4-----2--4--5--4------2--4--5--4----2--4--5--4----------------------
-----5---------------------------------------------5---5--------------
----------------------------------------------------------------------

----------------------------------------------------------------------
----------------------------------------------------------------------
-----------------------------------------------2---4---4--------------
--4-----2--4--5--4------2--4--5--4----2--4--5-------------------------
-----5----------------------------------------------------------------
----------------------------------------------------------------------

Verse
D 	G	Bm 	A
D		Bm 	A

Pre chorus x 2

-----------|1st time------------------------|2nd time-------------------
-----------|--------------------------------|---------------------------
-------2---|--------------------------------|---------------------------
-----4-----|--------------------------------|---------------------------
---4-------|--4--5---7--5--4----------------|--4--5--7--5--4--2---------
-2---------|-------------------3----7---5---|--------------------3---5--

Chorus
----------------------------------------------------------------------
-8---8---8---8---7---7---7---7---5---5---5---5---7---7---7---7--------
---7---7---7---7---7---7---7---7---6---6---6---6---6---6---6---6------
----------------------------------------------------------------------
----------------------------------------------------------------------
----------------------------------------------------------------------

----------------------------------------------------------------------
-7---7---7---7---8---8---8---8---10---10---10---10----8~--------------
---7---7---7---7---7---7---7---7----9----9----9----9--7~--------------
----------------------------------------------------------------------
----------------------------------------------------------------------
----------------------------------------------------------------------

Intro
Verse
Pre-Chorus

Solo
------------------------------------------12----------12-12/14/12-------
-----------8-7------------9-10-9------10-----10----10-------------10----
-9b11b9--7-7-7---11b13b11-9-9--9---11-----------11-------------------11-
------------------------------------------------------------------------
------------------------------------------------------------------------
------------------------------------------------------------------------

------------------------------------------------------------------------
-12--14-12-14-15--17--15--12---10////--12//-13//-14////-----------------
------------------------------------------------------------------------
-------------------------------11////--12//-13//-14////-----------------
------------------------------------------------------------------------
------------------------------------------------------------------------

Chorus
Intro

SCANDAL PLAYBOY Guitar Tabs


Playboy
SCANDAL
Tabbed by Jibba
SCANDAL HEAVEN

Intro x 4 
A C D

Verse
A A C~ A 
A A C~ A

Chorus x 4
A C D

Verse
A A C~ A
A A C~ A

Chorus x 4
A C D

Solo
-------------------------------------------------------------------------
----------5-----5----------------------5--8~-----------------------------
----5--7-----7----7--------------5--7------------5--7---7b8b7----7b8b7---
-7-------------------7--5---5h7---------------7--------------------------
-------------------------------------------------------------------------
-------------------------------------------------------------------------

----------------5~---|---------------------------------------------------
----------------5~---|--5----5----5------5----------5-----5-----5--------
-5-----------5--5~---|--7b9--7b9--7b9b7--7b9b7------7b9b7-7b9b7-7b9b7----
---7---7--7----------|--------------------------7------------------------
---------------------|---------------------------------------------------
---------------------|---------------------------------------------------

-------------------------------------------------------------------------
-5-----------------------------------------------------------------------
-7b9b7b9b7b9b7b9b7------12h16h12h16h12h16h12h16h12h16h12h16h12h16h12h16--
-------------------------------------------------------------------------
-------------------------------------------------------------------------
-------------------------------------------------------------------------

-------------------------------------------------------------------------
-12b15b12b15b12b15b12b15b12b15b12b15b12b15b12b15-------------------------
-------------------------------------------------------------------------
-------------------------------------------------------------------------
-------------------------------------------------------------------------
-------------------------------------------------------------------------

A D

Chorus x 12
A C D 
A

Outro
C A

Sayonara My Friend – Lead Guitar Tabs (live)



Sayonara My Friend~
SCANDAL
Lead tabs (by Jibba)
Times from cover

Intro (outro is same but one fret higher)
---------------------------------------------------
-17----17----17----17----19----19----21----21------
----16----16----16----16----16----16----16----16---
---------------------------------------------------
---------------------------------------------------
---------------------------------------------------

---------------------------------------------------
-17----17----17----17----19----19----17----19------
----16----16----16----16----16----16----16----16---
---------------------------------------------------
---------------------------------------------------
---------------------------------------------------

---------------------------------------------------
-17----17----17----17----19----19----21----21------
----16----16----16----16----16----16----16----16---
---------------------------------------------------
---------------------------------------------------
---------------------------------------------------

---------------------------------------------------
-17----17----17----17----19----19----17----17\-----
----16----16----16----16----16----16----16-16\-----
---------------------------------------------------
---------------------------------------------------
---------------------------------------------------

Verse
-----------------
-----------------
------------9-8~-
------9-11-------
-9-11------------
-----------------

------------------------------------
---------------------9-10-12-7--7---
-----8b9b8-----8b9b8----------------
-/9--------9---------6-7--9--4--4---
----9--------9----------------------
------------------------------------

1:00-1:02
-----------------
--------13-------
-11--------------
-----13----------
-----------------
-----------------


---------------------------------------
---------------------9-10-12-12-14-12--
-----8b9b8-----8b9b8-------------------
-/9--------9---------6-7--9--9--11-9---
----9--------9-------------------------
---------------------------------------

1:20-1:22
------------------
-16-17-17--16-16--
------------------
-13-14-14--13-13--
------------------
------------------

Guitar Solo
-----------------------------------------
-----------------------------------------
----------------4--4/8--8---11--8--9-----
-/6--4-6-6/7-6---------------------------
-----------------------------------------
-----------------------------------------

SCANDAL – Queens are Trumps (Lead Guitar Tabs)

Queens of TRUMPS
SCANDAL
[INTRO]
Guitar [0:05-0:09]
------------------------------------------------------------------
------------------------------------------------------------------
-------2(ph)b4b2h0------------------------------------------------
--2----------------2-0-------0-----------------------------2------
--2---------------------0--2----0--2-----------------------2------
--0----------------------------------3----(3)bend----------0------

Guitar 1 [0:15-0:17]
----------------------------------------------------------------
----------------------------------------------------------------
--7h9h7h9h7h9h7h9h7h9h7h9--7------------------------------------
------------------------------9\7-5-----------------------------
-------------------------------------7--------------------------
----------------------------------------------------------------
Guitar 2 [0:18-0:20]
--12-----12------------------12---------------------------------
--15b17-------15---12------------12-----------------------------
----------------------14b16----------14-14b16bh14--12-----------
----------------------------------------(ph)-----------14-------
----------------------------------------------------------------
----------------------------------------------------------------
Guitar 1 [0:20-0:39] (repeat x 4)
----------------------------------------------------------------
----------------------------------------------------------------
--/9--9-7---------------------/9--9-7---------------------------
----------9-8-7-5-----5--7------------9-8-7-5-----5-------------
-------------------7---------------------------7-----7----------
----------------------------------------------------------------
Guitar 2 [0:30-0:39]
--12-----12-----------------------------------------------------
--15b17--15b17--15--12------------------------------------------
-----------------------14b15b14--12----12--14-------------------
------------------------------------14--------------------------
----------------------------------------------------------------
----------------------------------------------------------------
--12-----12-----------------------------------------------------
--15b17--15b17--15--12------------------------------------------
-----------------------14b15b14--12----12-----------------------
------------------------------------14-----14-------------------
----------------------------------------------------------------
----------------------------------------------------------------
--12-----12-----------------------------------------------------
--15b17--15b17--15--12------------------------------------------
-----------------------14b15b14--12----12--14-------------------
------------------------------------14--------------------------
----------------------------------------------------------------
----------------------------------------------------------------
--15-12----15-12----15-12----15-12----15b17-15~-----------------
--------12-------12-------12-------12---------------------------
----------------------------------------------------------------
----------------------------------------------------------------
----------------------------------------------------------------
----------------------------------------------------------------
[VERSE 1]
Guitar 1 [0:40-0:59]
-----------------------|----------------------------------------
-----------------------|-----------------8----------------------
--7-7--7h9--9----------|(x3)---7-7--7h9------9------------------
-----------------5-7---|----------------------------------------
-----------------------|----------------------------------------
-----------------------|----------------------------------------
-----------------------|----------------------------------------
-----------------------|-----------------8~---------------------
--7-7--7h9--9----------|(x2)---7-7--7h9-----7-9-----------------
-----------------5-7---|----------------------------------------
-----------------------|----------------------------------------
-----------------------|----------------------------------------
----------------------------------------------------------------
----------------------------------------------------------------
---9-7----------------------------------------------------------
--------9-8-7-5-----5-------------------------------------------
-----------------7-----7----------------------------------------
----------------------------------------------------------------
[PRE-CHORUS]
[1:00-1:16]
----------------------------------------------------------------
-----------------------------------(ph)-------------------------
---------------------14b-----------12b14~-----------------------
---7---6---5---------14b---12--14---------14-12-14--------------
----------------------------------------------------------------
----------------------------------------------------------------
----------------------------------------------------------------
----------------------------------------------------------------
----------------------------------------------------------------
---7---6---5----------------------------------------------------
------------------7---------------------------------------------
----------------------------------------------------------------
[CHORUS]
Guitar 1 [1:18-1:38] (Repeat x 4)
----------------------------------------------------------------
----------------------------------------------------------------
--/9--9-7---------------------/9--9-7---------------------------
----------9-8-7-5-----5--7------------9-8-7-5-----5-------------
-------------------7---------------------------7-----7----------
----------------------------------------------------------------
[VERSE 2]
Guitar 1 [1:39-1:58]
-----------------------|----------------------------------------
-----------------------|-----------------8----------------------
--7-7--7h9--9----------|(x3)---7-7--7h9------9------------------
-----------------5-7---|----------------------------------------
-----------------------|----------------------------------------
-----------------------|----------------------------------------
-----------------------|----------------------------------------
-----------------------|-----------------8~---------------------
--7-7--7h9--9----------|(x2)---7-7--7h9-----7-9-----------------
-----------------5-7---|----------------------------------------
-----------------------|----------------------------------------
-----------------------|----------------------------------------
----------------------------------------------------------------
----------------------------------------------------------------
---9-7----------------------------------------------------------
--------9-8-7-5-----5-------------------------------------------
-----------------7-----7----------------------------------------
----------------------------------------------------------------
Guitar 2 [1:48-1:58]
-----------------------|----------------------------------------
--7-7--7h8--8----------|-------7-7--7h8--8~---------------------
-----------------7-9---|(x2)----------------7-9-----------------
-----------------------|----------------------------------------
-----------------------|----------------------------------------
-----------------------|----------------------------------------
---------12-----------------------------------------------------
----------------15--12------------------------------------------
-----------------------14b15b14--12----12-----------------------
------------------------------------14-----14-------------------
----------------------------------------------------------------
----------------------------------------------------------------
[PRE-CHORUS]
[2:03-2:08] "Oh Sh!t"
----------------------------------------------------------------
----------------------(ph)--------------------------------------
--12---14--12---------12~---------------------------------------
--12-----------12--14------14--12--14--12-----------------------
-------------------------------------------12-10----------------
----------------------------------------------------------------
----------------------------------------------------------------
----------------------------------------------------------------
----------------------------------------------------------------
-------------------------(ph)-----------------------------------
--12--10-----10--12--10--12b14--10------------------------------
----------12----------------------------------------------------
[2:12-2:15]
--15-12----15-12----15-12----15-12------------------------------
--------12-------12-------12-------12---------------------------
----------------------------------------------------------------
----------------------------------------------------------------
----------------------------------------------------------------
----------------------------------------------------------------
[CHORUS]
(Guitar 1 same as before)
Guitar 2 [2:20-2:37]
-12-----12------12-----14-----14-----15-------------------------
-15b17--15b17---15b17--17b19--17b19--18b20----------------------
----------------------------------------------------------------
----------------------------------------------------------------
----------------------------------------------------------------
----------------------------------------------------------------
--------12------12-----14-----14-----15-------------------------
--------15b17---15b17--17b19--17b19--18b20----------------------
----------------------------------------------------------------
----------------------------------------------------------------
----------------------------------------------------------------
----------------------------------------------------------------

--12-----12-----------------------------------------------------
--15b17--15b17--15--12------------------------------------------
-----------------------14b15b14--12----12-----------------------
------------------------------------14-----14-------------------
----------------------------------------------------------------
----------------------------------------------------------------

Pin Heel Surfer Guitar Tabs



Pin Heel Surfer
SCANDAL

Pre-Intro Riff
-----------------------|          -------------------------------------------
-----------------------|          --------------------8--8--8---7-----7------
-----------------------|          --------------------9--9--9---7-----7------
-----------------------| x 3      --------------------10-10-10--7-----7------
-----------------------|          -------------------------------------------
-0-0-0-0--0-0-0--0--0--|          -0-0-0-0--0-0-0----------------------------

Intro x 2
------------------------------------------------------------------------
----------------10-9----------------------------------------------------
-11--9--11--9-----------11--9--11--9------------------------------------
---------------------------------------11--9----------------------------
-9---7--9---7-----------9---7--9---7------------------------------------
------------------------------------------------------------------------

-----------------------------------------------------------------
----------------10-9------------8------7-------------------------
-11--9--11--9----------11--9----9------7-------------------------
--------------------------------10-----7-------------------------
-9---7--9---7----------9---7-------------------------------------
-----------------------------------------------------------------

(Play last two chords as intro second repeat)

Verse x 2
----------------------|-----------------------|-------------------------
----------------------|-----------------------|-------------------------
----------------------|-----------------------|-------------------------
----------------------|-----------------------|-------------------------
-7-7-7-7--7-7-7--7--7-|-7-7-7-7--7-7-7--7--7--|-2-2-2-2--2-2-2--2--2----
----------------------|-----------------------|-------------------------

----------------------|-----------------------|-------------------------
----------------------|-----------------------|-------------------------
----------------------|-----------------------|-------------------------
----------------------|-----------------------|-------------------------
-2-2-2-2--2-2-2--2--2-|-7-7-7-7--7-7-7--7--7--|-7-7-7-7--7-7-7--7--7----
----------------------|-----------------------|-------------------------

----------------------|-----------------------|-------------------------
----------------------|-----------------------|-------------------------
----------------------|-----------------------|-------------------------
----------------------|-----------------------|-------------------------
-6-6-6-6--6-6-6--6--6-|-7-7-7-7--7-7-7--7--7--|-------------------------
----------------------|-----------------------|-------------------------

Pre-Chorus
----------------------|-------------------------|-----------------------
----------------------|-------------------------|-----------------------
-7-7-7-7----9-9-9-9---|-11-11-11-11-14-14-14-14-|-8-8-8-8--9-9-9-9------
----------------------|-------------------------|-----------------------
-5-5-5-5----7-7-7-7---|-9--9--9--9--12-12-12-12-|-6-6-6-6--7-7-7-7------
----------------------|-------------------------|-----------------------

--------------------------|--5---5-----7---7----|-8---8---9----9----9---9--9---
--------------------------|---------------------|-----------10---10-----10-10--
-10-10-10-10--11-11-11-11-|----6---------8------|---9--------------------------
--------------------------|---------------------|------------------------------
-8--8--8--8---9--9--9--9--|---------------------|------------------------------
--------------------------|---------------------|------------------------------

Chorus
E B C#m G#

----------------------|-----------------------|-------------------------
-9///-------9///------|-9///-------9///-------|-------------------------
------9///-------9///-|------9///-------9///--|-------------------------
----------------------|-----------------------|--4--6--7--8--9--9-------
----------------------|-----------------------|-------------------------
----------------------|-----------------------|--2--4--5--6--7--7-------

Intro Repeat

Verse Repeat

Verse 2 Riff
--12--12///------------------------11--11///----------------------------
-------------12///---14///--12///------------12///--14///--12///--14----
------------------------------------------------------------------------
------------------------------------------------------------------------
------------------------------------------------------------------------
------------------------------------------------------------------------

------------------------------------------------------------------------
-14///---------------------13-------------------------------------------
-------13///-14///--14///-------14///--13///--11///--9///---------------
------------------------------------------------------------------------
------------------------------------------------------------------------
------------------------------------------------------------------------

Pre-chorus Repeat
Chorus Repeat

Interlude
C D (intro riff) 
C D (intro riff)
C D Am
C D A

Pre-Chorus Repeat
Chorus Repeat (last line slighlty different E C#m)
Intro Repeat

Stereopony Viva La Viva La Guitar Chords/Tabs


Bibara Bibara

Pickup
C B Bb B

Intro
E C B Eb
E C B Bb
E C B Eb
E C C B Bb B
 x 2

Verse
E C D
E C C B Bb B
E C D
E C C B Bb B

Bridge
C D
E C B Eb
E C B Bb
C D
E C B Eb
E C B Bb

Pre-Chorus
---------------------------------------
---------------------------------------
---------------------------------------
---------------------------------------
-------0-2-0-------0-2-0-2-3-2---------
-0-2-3-------3-2-3---------------------

C B Bb B

Chorus
C D B E
C D E G A B
C D B E
C D

E C B Eb
E C C B Bb B

Verse, Bridge, Prechorus Repeat

Chorus
E C B Eb
E C C B Bb B x 2

Solo
----------------------------------------
----------------------------------------
-12-11-12-14-12---11----------11--------
---------------------14-13-14----14-----
----------------------------------------
----------------------------------------

----------------------------------------
------------------------12-12-13-12-----
-12-11-12-14-12---12-14-----------------
----------------------------------------
----------------------------------------
----------------------------------------

----------------------------------12----
-12-13-16-13-12-------------------------
----------------14-12-11-11-12-14-------
----------------------------------------
----------------------------------------
----------------------------------------

-11-------------------------------------
----13-12-13-12-------12----------------
----------------14-12----14-12-11-12----
-------------------------------------14-
----------------------------------------
----------------------------------------

Chorus
C D B E
C D E G A
C D B E
C D
E C B Bb
C D B E
C D E G A B
C D B E
C D

E C B Eb
E C C B Bb B x 4

C B Bb B

Ieiri Leo Shine Guitar Chords and Tabs


Shine
Ieiri Leo

[Intro]
-----------------------------------------------------------------------
-----------------------------------------------------------------------
--4-4-4-6-6-6-6-6-7-7-7-6-6-6-6-6-4-4-4-6-6-6-6-6-4-4-4-6-6-6-6-6------
--6-6-6-7-7-7-7-7-9-9-9-7-7-7-7-7-6-6-6-7-7-7-7-7-6-6-6-7-7-7-7-7------ 
-----------------------------------------------------------------------
-----------------------------------------------------------------------

[Verse]
Repeat Intro x 2

[PreChorus]
D     E
D     E

[Chorus]
F#m D E
A A/G# 
F#m D E
E

F#m D E
A A/G# 
F#m D E
D E F#m B
D   E

Verse, PreChorus, Chorus Repeat

[Solo]
2:30
-------------------------------
-----------10--------12b14-12--
------9-11----11(h)------------
-9-11--------------------------
-------------------------------
-------------------------------

[Bridge]
Intro Repeat
-----------------------------------------------------------------------
-----------------------------------------------------------------------
--4-4-4-6-6-6-6-6-7-7-7-6-6-6-6-6-4-4-4-6-6-6-6-6-4-4-4-6-6-6-6-6------
--6-6-6-7-7-7-7-7-9-9-9-7-7-7-7-7-6-6-6-7-7-7-7-7-6-6-6-7-7-7-7-7------ 
-----------------------------------------------------------------------
-----------------------------------------------------------------------

D E

Repeat Chorus

****
Outro Riffs
3:09

-14----------------------------------------------------
-17b19--17--15-14h15h14--------------------------------
-------------------------16-14-16--13--11--------------
-------------------------------------------------------
-------------------------------------------------------
-------------------------------------------------------

3:26
-------------------------------------------------------
-/9--10-------12b14--12-10-9--9h10p9-------------------
--------11(h)------------------------11-9--------------
------------------------------------------11-10-9-7(h)-
-------------------------------------------------------
-------------------------------------------------------

Follow

Get every new post delivered to your Inbox.